ISO-10303-21;
HEADER;
FILE_DESCRIPTION (( 'STEP AP203' ),
    '1' );
FILE_NAME ('BK7-LNPBSC-12.7-1064.STEP',
    '2021-01-05T02:00:31',
    ( '' ),
    ( '' ),
    'SwSTEP 2.0',
    'SolidWorks 2020',
    '' );
FILE_SCHEMA (( 'CONFIG_CONTROL_DESIGN' ));
ENDSEC;

DATA;
#1 =( GEOMETRIC_REPRESENTATION_CONTEXT ( 3 ) GLOBAL_UNCERTAINTY_ASSIGNED_CONTEXT ( ( #184 ) ) GLOBAL_UNIT_ASSIGNED_CONTEXT ( ( #263, #243, #11 ) ) REPRESENTATION_CONTEXT ( 'NONE', 'WORKASPACE' ) );
#2 = CARTESIAN_POINT ( 'NONE',  ( 0.000000000000000000, 0.000000000000000000, -6.349999999999999645 ) ) ;
#3 = DIRECTION ( 'NONE',  ( -0.000000000000000000, -0.000000000000000000, -1.000000000000000000 ) ) ;
#4 = CARTESIAN_POINT ( 'NONE',  ( -6.349999999999998757, -6.349999999999997868, -6.349999999999999645 ) ) ;
#5 = VECTOR ( 'NONE', #3, 1000.000000000000000 ) ;
#6 = CARTESIAN_POINT ( 'NONE',  ( -6.349999999999999645, -6.350000000000000533, 6.349999999999999645 ) ) ;
#7 = ORIENTED_EDGE ( 'NONE', *, *, #96, .T. ) ;
#8 = CALENDAR_DATE ( 2021, 5, 1 ) ;
#9 = LINE ( 'NONE', #59, #107 ) ;
#10 = ORIENTED_EDGE ( 'NONE', *, *, #212, .F. ) ;
#11 =( NAMED_UNIT ( * ) SI_UNIT ( $, .STERADIAN. ) SOLID_ANGLE_UNIT ( ) );
#12 = PRODUCT_DEFINITION_FORMATION_WITH_SPECIFIED_SOURCE ( 'ANY', '', #215, .NOT_KNOWN. ) ;
#13 = VERTEX_POINT ( 'NONE', #292 ) ;
#14 = FACE_OUTER_BOUND ( 'NONE', #258, .T. ) ;
#15 = CALENDAR_DATE ( 2021, 5, 1 ) ;
#16 = VERTEX_POINT ( 'NONE', #17 ) ;
#17 = CARTESIAN_POINT ( 'NONE',  ( -6.349999999999999645, -6.350000000000000533, 6.349999999999999645 ) ) ;
#18 = VERTEX_POINT ( 'NONE', #159 ) ;
#19 = CLOSED_SHELL ( 'NONE', ( #314, #218, #134, #117, #318 ) ) ;
#20 = AXIS2_PLACEMENT_3D ( 'NONE', #167, #253, #72 ) ;
#21 = EDGE_CURVE ( 'NONE', #57, #176, #136, .T. ) ;
#22 = DIRECTION ( 'NONE',  ( 0.000000000000000000, -0.000000000000000000, 1.000000000000000000 ) ) ;
#23 = CARTESIAN_POINT ( 'NONE',  ( -6.349999999999999645, -6.350000000000000533, -6.349999999999999645 ) ) ;
#24 = DIRECTION ( 'NONE',  ( -0.7071067811865474617, -0.7071067811865474617, 0.000000000000000000 ) ) ;
#25 = ORIENTED_EDGE ( 'NONE', *, *, #178, .F. ) ;
#26 = COORDINATED_UNIVERSAL_TIME_OFFSET ( 8, 0, .AHEAD. ) ;
#27 = DIRECTION ( 'NONE',  ( -1.000000000000000000, -6.829619984160658046E-17, 0.000000000000000000 ) ) ;
#28 = AXIS2_PLACEMENT_3D ( 'NONE', #119, #98, #143 ) ;
#29 = PERSON_AND_ORGANIZATION ( #296, #246 ) ;
#30 = DIRECTION ( 'NONE',  ( -0.7071067811865475727, -0.7071067811865475727, 0.000000000000000000 ) ) ;
#31 = ORIENTED_EDGE ( 'NONE', *, *, #254, .T. ) ;
#32 = CALENDAR_DATE ( 2021, 5, 1 ) ;
#33 = CARTESIAN_POINT ( 'NONE',  ( 6.349999999999999645, -6.350000000000000533, 6.349999999999999645 ) ) ;
#34 = DIRECTION ( 'NONE',  ( 1.000000000000000000, 0.000000000000000000, 0.000000000000000000 ) ) ;
#35 = ORIENTED_EDGE ( 'NONE', *, *, #139, .F. ) ;
#36 = ORIENTED_EDGE ( 'NONE', *, *, #250, .F. ) ;
#37 = COORDINATED_UNIVERSAL_TIME_OFFSET ( 8, 0, .AHEAD. ) ;
#38 = VECTOR ( 'NONE', #156, 1000.000000000000000 ) ;
#39 = VERTEX_POINT ( 'NONE', #131 ) ;
#40 = CALENDAR_DATE ( 2021, 5, 1 ) ;
#41 = CARTESIAN_POINT ( 'NONE',  ( 6.349999999999998757, 6.349999999999998757, -6.349999999999999645 ) ) ;
#42 = FACE_OUTER_BOUND ( 'NONE', #67, .T. ) ;
#43 = ORIENTED_EDGE ( 'NONE', *, *, #93, .T. ) ;
#44 = EDGE_CURVE ( 'NONE', #13, #133, #256, .T. ) ;
#45 = ADVANCED_FACE ( 'NONE', ( #14 ), #231, .T. ) ;
#46 = CARTESIAN_POINT ( 'NONE',  ( -6.349999999999999645, -6.350000000000000533, 6.349999999999999645 ) ) ;
#47 = DIRECTION ( 'NONE',  ( -2.220446049250312588E-16, 1.000000000000000000, 0.000000000000000000 ) ) ;
#48 = VECTOR ( 'NONE', #24, 1000.000000000000114 ) ;
#49 = DIRECTION ( 'NONE',  ( 6.829619984160658046E-17, -1.000000000000000000, 0.000000000000000000 ) ) ;
#50 = APPROVAL ( #58, 'UNSPECIFIED' ) ;
#51 = DIRECTION ( 'NONE',  ( 1.000000000000000000, 0.000000000000000000, 0.000000000000000000 ) ) ;
#52 = CARTESIAN_POINT ( 'NONE',  ( 6.349999999999996980, 6.349999999999996980, 6.349999999999999645 ) ) ;
#53 = AXIS2_PLACEMENT_3D ( 'NONE', #274, #27, #49 ) ;
#54 = AXIS2_PLACEMENT_3D ( 'NONE', #245, #154, #34 ) ;
#55 = ORIENTED_EDGE ( 'NONE', *, *, #21, .T. ) ;
#56 = LINE ( 'NONE', #41, #66 ) ;
#57 = VERTEX_POINT ( 'NONE', #162 ) ;
#58 = APPROVAL_STATUS ( 'not_yet_approved' ) ;
#59 = CARTESIAN_POINT ( 'NONE',  ( -6.349999999999998757, -6.349999999999997868, 6.349999999999999645 ) ) ;
#60 = APPROVAL_ROLE ( '' ) ;
#61 = ORIENTED_EDGE ( 'NONE', *, *, #21, .F. ) ;
#62 = COORDINATED_UNIVERSAL_TIME_OFFSET ( 8, 0, .AHEAD. ) ;
#63 = CARTESIAN_POINT ( 'NONE',  ( 0.000000000000000000, 0.000000000000000000, 6.349999999999999645 ) ) ;
#64 = MECHANICAL_CONTEXT ( 'NONE', #118, 'mechanical' ) ;
#65 = EDGE_CURVE ( 'NONE', #39, #176, #9, .T. ) ;
#66 = VECTOR ( 'NONE', #104, 1000.000000000000000 ) ;
#67 = EDGE_LOOP ( 'NONE', ( #61, #229, #99, #86 ) ) ;
#68 = DIRECTION ( 'NONE',  ( 0.7071067811865475727, 0.7071067811865475727, 0.000000000000000000 ) ) ;
#69 = CC_DESIGN_APPROVAL ( #172, ( #12 ) ) ;
#70 = APPLICATION_CONTEXT ( 'configuration controlled 3d designs of mechanical parts and assemblies' ) ;
#71 = CARTESIAN_POINT ( 'NONE',  ( -6.349999999999998757, -6.349999999999997868, -6.349999999999999645 ) ) ;
#72 = DIRECTION ( 'NONE',  ( 0.7071067811865474617, 0.7071067811865474617, 0.000000000000000000 ) ) ;
#73 = FACE_OUTER_BOUND ( 'NONE', #186, .T. ) ;
#74 = CC_DESIGN_APPROVAL ( #50, ( #169 ) ) ;
#75 = CC_DESIGN_PERSON_AND_ORGANIZATION_ASSIGNMENT ( #213, #85, ( #215 ) ) ;
#76 = LINE ( 'NONE', #198, #48 ) ;
#77 = COORDINATED_UNIVERSAL_TIME_OFFSET ( 8, 0, .AHEAD. ) ;
#78 = LINE ( 'NONE', #224, #251 ) ;
#79 = ORIENTED_EDGE ( 'NONE', *, *, #247, .T. ) ;
#80 = APPROVAL_STATUS ( 'not_yet_approved' ) ;
#81 = AXIS2_PLACEMENT_3D ( 'NONE', #6, #97, #22 ) ;
#82 = VERTEX_POINT ( 'NONE', #209 ) ;
#83 = PERSON_AND_ORGANIZATION ( #296, #246 ) ;
#84 = DIRECTION ( 'NONE',  ( 1.000000000000000000, -2.903408047666378392E-16, 0.000000000000000000 ) ) ;
#85 = PERSON_AND_ORGANIZATION_ROLE ( 'design_owner' ) ;
#86 = ORIENTED_EDGE ( 'NONE', *, *, #65, .T. ) ;
#87 = SECURITY_CLASSIFICATION_LEVEL ( 'unclassified' ) ;
#88 = LINE ( 'NONE', #205, #38 ) ;
#89 = ORIENTED_EDGE ( 'NONE', *, *, #272, .F. ) ;
#90 = DIRECTION ( 'NONE',  ( -6.829619984160658046E-17, 1.000000000000000000, -0.000000000000000000 ) ) ;
#91 = PLANE ( 'NONE',  #216 ) ;
#92 = CC_DESIGN_APPROVAL ( #257, ( #122 ) ) ;
#93 = EDGE_CURVE ( 'NONE', #294, #133, #56, .T. ) ;
#94 = VECTOR ( 'NONE', #30, 999.9999999999998863 ) ;
#95 = LOCAL_TIME ( 10, 0, 31.00000000000000000, #26 ) ;
#96 = EDGE_CURVE ( 'NONE', #108, #18, #88, .T. ) ;
#97 = DIRECTION ( 'NONE',  ( 0.000000000000000000, 1.000000000000000000, 0.000000000000000000 ) ) ;
#98 = DIRECTION ( 'NONE',  ( 1.000000000000000000, -2.220446049250312588E-16, 0.000000000000000000 ) ) ;
#99 = ORIENTED_EDGE ( 'NONE', *, *, #178, .T. ) ;
#100 = EDGE_CURVE ( 'NONE', #302, #294, #241, .T. ) ;
#101 = DIRECTION ( 'NONE',  ( -0.7071067811865475727, -0.7071067811865475727, 0.000000000000000000 ) ) ;
#102 = ORIENTED_EDGE ( 'NONE', *, *, #116, .T. ) ;
#103 = PERSON_AND_ORGANIZATION ( #296, #246 ) ;
#104 = DIRECTION ( 'NONE',  ( -6.829619984160658046E-17, 1.000000000000000000, -0.000000000000000000 ) ) ;
#105 = EDGE_LOOP ( 'NONE', ( #138, #155, #7, #31 ) ) ;
#106 = CARTESIAN_POINT ( 'NONE',  ( 6.349999999999998757, 6.349999999999998757, 6.349999999999999645 ) ) ;
#107 = VECTOR ( 'NONE', #309, 1000.000000000000000 ) ;
#108 = VERTEX_POINT ( 'NONE', #109 ) ;
#109 = CARTESIAN_POINT ( 'NONE',  ( -6.350000000000002309, 6.350000000000001421, 6.349999999999999645 ) ) ;
#110 = DATE_AND_TIME ( #15, #144 ) ;
#111 = CARTESIAN_POINT ( 'NONE',  ( -6.349999999999999645, -6.350000000000000533, -6.349999999999999645 ) ) ;
#112 = CC_DESIGN_DATE_AND_TIME_ASSIGNMENT ( #230, #265, ( #122 ) ) ;
#113 = ORIENTED_EDGE ( 'NONE', *, *, #247, .F. ) ;
#114 = VECTOR ( 'NONE', #319, 1000.000000000000000 ) ;
#115 = CLOSED_SHELL ( 'NONE', ( #220, #240, #204, #45, #193 ) ) ;
#116 = EDGE_CURVE ( 'NONE', #82, #13, #211, .T. ) ;
#117 = ADVANCED_FACE ( 'NONE', ( #174 ), #191, .T. ) ;
#118 = APPLICATION_CONTEXT ( 'configuration controlled 3d designs of mechanical parts and assemblies' ) ;
#119 = CARTESIAN_POINT ( 'NONE',  ( -6.349999999999998757, -6.349999999999997868, 6.349999999999999645 ) ) ;
#120 = DIRECTION ( 'NONE',  ( 0.000000000000000000, 0.000000000000000000, -1.000000000000000000 ) ) ;
#121 = PLANE ( 'NONE',  #20 ) ;
#122 = PRODUCT_DEFINITION ( 'UNKNOWN', '', #12, #164 ) ;
#123 = DATE_AND_TIME ( #227, #237 ) ;
#124 = DIRECTION ( 'NONE',  ( -0.000000000000000000, -0.000000000000000000, -1.000000000000000000 ) ) ;
#125 = MANIFOLD_SOLID_BREP ( '¾µÏ', #19 ) ;
#126 = ORIENTED_EDGE ( 'NONE', *, *, #142, .T. ) ;
#127 = DIRECTION ( 'NONE',  ( -0.000000000000000000, -0.000000000000000000, -1.000000000000000000 ) ) ;
#128 = DIRECTION ( 'NONE',  ( -0.7071067811865475727, 0.7071067811865475727, 0.000000000000000000 ) ) ;
#129 = ORIENTED_EDGE ( 'NONE', *, *, #308, .F. ) ;
#130 = APPROVAL_DATE_TIME ( #110, #257 ) ;
#131 = CARTESIAN_POINT ( 'NONE',  ( -6.349999999999998757, -6.349999999999997868, 6.349999999999999645 ) ) ;
#132 = AXIS2_PLACEMENT_3D ( 'NONE', #63, #262, #236 ) ;
#133 = VERTEX_POINT ( 'NONE', #188 ) ;
#134 = ADVANCED_FACE ( 'NONE', ( #295 ), #280, .F. ) ;
#135 = DATE_AND_TIME ( #40, #194 ) ;
#136 = LINE ( 'NONE', #266, #94 ) ;
#137 = DIRECTION ( 'NONE',  ( -2.220446049250312588E-16, 1.000000000000000000, 0.000000000000000000 ) ) ;
#138 = ORIENTED_EDGE ( 'NONE', *, *, #142, .F. ) ;
#139 = EDGE_CURVE ( 'NONE', #82, #294, #259, .T. ) ;
#140 = VECTOR ( 'NONE', #168, 1000.000000000000114 ) ;
#141 = AXIS2_PLACEMENT_3D ( 'NONE', #2, #277, #203 ) ;
#142 = EDGE_CURVE ( 'NONE', #305, #57, #233, .T. ) ;
#143 = DIRECTION ( 'NONE',  ( 0.000000000000000000, 0.000000000000000000, 1.000000000000000000 ) ) ;
#144 = LOCAL_TIME ( 10, 0, 31.00000000000000000, #37 ) ;
#145 = LINE ( 'NONE', #301, #150 ) ;
#146 = PLANE ( 'NONE',  #141 ) ;
#147 = PLANE ( 'NONE',  #53 ) ;
#148 = PERSON_AND_ORGANIZATION ( #296, #246 ) ;
#149 = DIRECTION ( 'NONE',  ( 1.000000000000000000, 0.000000000000000000, 0.000000000000000000 ) ) ;
#150 = VECTOR ( 'NONE', #51, 1000.000000000000000 ) ;
#151 = ORIENTED_EDGE ( 'NONE', *, *, #250, .T. ) ;
#152 = DATE_AND_TIME ( #8, #273 ) ;
#153 = CARTESIAN_POINT ( 'NONE',  ( 0.000000000000000000, 0.000000000000000000, 6.349999999999999645 ) ) ;
#154 = DIRECTION ( 'NONE',  ( 0.000000000000000000, 0.000000000000000000, 1.000000000000000000 ) ) ;
#155 = ORIENTED_EDGE ( 'NONE', *, *, #161, .F. ) ;
#156 = DIRECTION ( 'NONE',  ( 1.000000000000000000, -2.903408047666378392E-16, 0.000000000000000000 ) ) ;
#157 = EDGE_LOOP ( 'NONE', ( #43, #244, #290, #214 ) ) ;
#158 = APPROVAL_ROLE ( '' ) ;
#159 = CARTESIAN_POINT ( 'NONE',  ( 6.349999999999996980, 6.349999999999996980, 6.349999999999999645 ) ) ;
#160 = AXIS2_PLACEMENT_3D ( 'NONE', #153, #313, #306 ) ;
#161 = EDGE_CURVE ( 'NONE', #108, #305, #183, .T. ) ;
#162 = CARTESIAN_POINT ( 'NONE',  ( 6.349999999999996980, 6.349999999999996980, -6.349999999999999645 ) ) ;
#163 = PRODUCT_RELATED_PRODUCT_CATEGORY ( 'detail', '', ( #215 ) ) ;
#164 = DESIGN_CONTEXT ( 'detailed design', #70, 'design' ) ;
#165 = VECTOR ( 'NONE', #225, 1000.000000000000000 ) ;
#166 = CC_DESIGN_PERSON_AND_ORGANIZATION_ASSIGNMENT ( #83, #235, ( #169 ) ) ;
#167 = CARTESIAN_POINT ( 'NONE',  ( 6.349999999999998757, 6.349999999999998757, 6.349999999999999645 ) ) ;
#168 = DIRECTION ( 'NONE',  ( -0.7071067811865474617, -0.7071067811865474617, 0.000000000000000000 ) ) ;
#169 = SECURITY_CLASSIFICATION ( '', '', #87 ) ;
#170 = FACE_OUTER_BOUND ( 'NONE', #282, .T. ) ;
#171 = CARTESIAN_POINT ( 'NONE',  ( -6.350000000000002309, 6.350000000000001421, -6.349999999999999645 ) ) ;
#172 = APPROVAL ( #80, 'UNSPECIFIED' ) ;
#173 = SHAPE_DEFINITION_REPRESENTATION ( #242, #197 ) ;
#174 = FACE_OUTER_BOUND ( 'NONE', #268, .T. ) ;
#175 = FACE_OUTER_BOUND ( 'NONE', #210, .T. ) ;
#176 = VERTEX_POINT ( 'NONE', #71 ) ;
#177 = PERSON_AND_ORGANIZATION_ROLE ( 'creator' ) ;
#178 = EDGE_CURVE ( 'NONE', #18, #39, #78, .T. ) ;
#179 = DIRECTION ( 'NONE',  ( -2.903408047666378392E-16, -1.000000000000000000, 0.000000000000000000 ) ) ;
#180 = VECTOR ( 'NONE', #149, 1000.000000000000000 ) ;
#181 = ORIENTED_EDGE ( 'NONE', *, *, #161, .T. ) ;
#182 = APPROVAL_DATE_TIME ( #135, #172 ) ;
#183 = LINE ( 'NONE', #287, #165 ) ;
#184 = UNCERTAINTY_MEASURE_WITH_UNIT (LENGTH_MEASURE( 1.000000000000000082E-05 ), #263, 'distance_accuracy_value', 'NONE');
#185 = APPLICATION_PROTOCOL_DEFINITION ( 'international standard', 'config_control_design', 1994, #70 ) ;
#186 = EDGE_LOOP ( 'NONE', ( #151, #10, #113, #202 ) ) ;
#187 = COORDINATED_UNIVERSAL_TIME_OFFSET ( 8, 0, .AHEAD. ) ;
#188 = CARTESIAN_POINT ( 'NONE',  ( 6.349999999999998757, 6.349999999999998757, -6.349999999999999645 ) ) ;
#189 = PERSON_AND_ORGANIZATION ( #296, #246 ) ;
#190 = ORIENTED_EDGE ( 'NONE', *, *, #100, .F. ) ;
#191 = PLANE ( 'NONE',  #160 ) ;
#192 = VECTOR ( 'NONE', #120, 1000.000000000000000 ) ;
#193 = ADVANCED_FACE ( 'NONE', ( #170 ), #146, .F. ) ;
#194 = LOCAL_TIME ( 10, 0, 31.00000000000000000, #187 ) ;
#195 = VECTOR ( 'NONE', #84, 1000.000000000000000 ) ;
#196 = AXIS2_PLACEMENT_3D ( 'NONE', #310, #293, #137 ) ;
#197 = ADVANCED_BREP_SHAPE_REPRESENTATION ( 'BK7-LNPBSC-12.7-1064', ( #248, #125, #54 ), #1 ) ;
#198 = CARTESIAN_POINT ( 'NONE',  ( 6.349999999999998757, 6.349999999999998757, 6.349999999999999645 ) ) ;
#199 = FACE_OUTER_BOUND ( 'NONE', #157, .T. ) ;
#200 = CC_DESIGN_SECURITY_CLASSIFICATION ( #169, ( #12 ) ) ;
#201 = LINE ( 'NONE', #4, #281 ) ;
#202 = ORIENTED_EDGE ( 'NONE', *, *, #44, .T. ) ;
#203 = DIRECTION ( 'NONE',  ( 1.000000000000000000, 0.000000000000000000, 0.000000000000000000 ) ) ;
#204 = ADVANCED_FACE ( 'NONE', ( #199 ), #147, .F. ) ;
#205 = CARTESIAN_POINT ( 'NONE',  ( 6.349999999999996980, 6.349999999999996980, 6.349999999999999645 ) ) ;
#206 = EDGE_LOOP ( 'NONE', ( #208, #35, #316, #311 ) ) ;
#207 = CARTESIAN_POINT ( 'NONE',  ( 6.349999999999996980, 6.349999999999996980, -6.349999999999999645 ) ) ;
#208 = ORIENTED_EDGE ( 'NONE', *, *, #100, .T. ) ;
#209 = CARTESIAN_POINT ( 'NONE',  ( 6.349999999999999645, -6.350000000000000533, 6.349999999999999645 ) ) ;
#210 = EDGE_LOOP ( 'NONE', ( #89, #307, #234, #181 ) ) ;
#211 = LINE ( 'NONE', #317, #219 ) ;
#212 = EDGE_CURVE ( 'NONE', #16, #302, #300, .T. ) ;
#213 = PERSON_AND_ORGANIZATION ( #296, #246 ) ;
#214 = ORIENTED_EDGE ( 'NONE', *, *, #139, .T. ) ;
#215 = PRODUCT ( 'BK7-LNPBSC-12.7-1064', 'BK7-LNPBSC-12.7-1064', '', ( #64 ) ) ;
#216 = AXIS2_PLACEMENT_3D ( 'NONE', #270, #128, #68 ) ;
#217 = APPLICATION_PROTOCOL_DEFINITION ( 'international standard', 'config_control_design', 1994, #118 ) ;
#218 = ADVANCED_FACE ( 'NONE', ( #175 ), #228, .F. ) ;
#219 = VECTOR ( 'NONE', #90, 1000.000000000000000 ) ;
#220 = ADVANCED_FACE ( 'NONE', ( #73 ), #121, .F. ) ;
#221 = CC_DESIGN_PERSON_AND_ORGANIZATION_ASSIGNMENT ( #303, #239, ( #12 ) ) ;
#222 = APPROVAL_PERSON_ORGANIZATION ( #279, #172, #158 ) ;
#223 = FACE_OUTER_BOUND ( 'NONE', #206, .T. ) ;
#224 = CARTESIAN_POINT ( 'NONE',  ( 6.349999999999996980, 6.349999999999996980, 6.349999999999999645 ) ) ;
#225 = DIRECTION ( 'NONE',  ( 0.000000000000000000, 0.000000000000000000, -1.000000000000000000 ) ) ;
#226 = APPROVAL_PERSON_ORGANIZATION ( #189, #257, #60 ) ;
#227 = CALENDAR_DATE ( 2021, 5, 1 ) ;
#228 = PLANE ( 'NONE',  #28 ) ;
#229 = ORIENTED_EDGE ( 'NONE', *, *, #254, .F. ) ;
#230 = DATE_AND_TIME ( #32, #95 ) ;
#231 = PLANE ( 'NONE',  #132 ) ;
#232 = ORIENTED_EDGE ( 'NONE', *, *, #288, .T. ) ;
#233 = LINE ( 'NONE', #207, #195 ) ;
#234 = ORIENTED_EDGE ( 'NONE', *, *, #308, .T. ) ;
#235 = PERSON_AND_ORGANIZATION_ROLE ( 'classification_officer' ) ;
#236 = DIRECTION ( 'NONE',  ( 1.000000000000000000, 0.000000000000000000, 0.000000000000000000 ) ) ;
#237 = LOCAL_TIME ( 10, 0, 31.00000000000000000, #77 ) ;
#238 = ORIENTED_EDGE ( 'NONE', *, *, #96, .F. ) ;
#239 = PERSON_AND_ORGANIZATION_ROLE ( 'creator' ) ;
#240 = ADVANCED_FACE ( 'NONE', ( #223 ), #249, .F. ) ;
#241 = LINE ( 'NONE', #111, #180 ) ;
#242 = PRODUCT_DEFINITION_SHAPE ( 'NONE', 'NONE',  #122 ) ;
#243 =( NAMED_UNIT ( * ) PLANE_ANGLE_UNIT ( ) SI_UNIT ( $, .RADIAN. ) );
#244 = ORIENTED_EDGE ( 'NONE', *, *, #44, .F. ) ;
#245 = CARTESIAN_POINT ( 'NONE',  ( 0.000000000000000000, 0.000000000000000000, 0.000000000000000000 ) ) ;
#246 = ORGANIZATION ( 'UNSPECIFIED', 'UNSPECIFIED', '' ) ;
#247 = EDGE_CURVE ( 'NONE', #13, #16, #76, .T. ) ;
#248 = MANIFOLD_SOLID_BREP ( 'Í¹Ì¨-À', #115 ) ;
#249 = PLANE ( 'NONE',  #81 ) ;
#250 = EDGE_CURVE ( 'NONE', #133, #302, #299, .T. ) ;
#251 = VECTOR ( 'NONE', #101, 999.9999999999998863 ) ;
#252 = CARTESIAN_POINT ( 'NONE',  ( 6.349999999999999645, -6.350000000000000533, -6.349999999999999645 ) ) ;
#253 = DIRECTION ( 'NONE',  ( 0.7071067811865475727, -0.7071067811865475727, 0.000000000000000000 ) ) ;
#254 = EDGE_CURVE ( 'NONE', #18, #57, #275, .T. ) ;
#255 = LINE ( 'NONE', #315, #114 ) ;
#256 = LINE ( 'NONE', #106, #297 ) ;
#257 = APPROVAL ( #289, 'UNSPECIFIED' ) ;
#258 = EDGE_LOOP ( 'NONE', ( #79, #232, #102 ) ) ;
#259 = LINE ( 'NONE', #33, #271 ) ;
#260 = PLANE ( 'NONE',  #196 ) ;
#261 = ORIENTED_EDGE ( 'NONE', *, *, #272, .T. ) ;
#262 = DIRECTION ( 'NONE',  ( -0.000000000000000000, 0.000000000000000000, 1.000000000000000000 ) ) ;
#263 =( LENGTH_UNIT ( ) NAMED_UNIT ( * ) SI_UNIT ( .MILLI., .METRE. ) );
#264 = EDGE_LOOP ( 'NONE', ( #55, #261, #126 ) ) ;
#265 = DATE_TIME_ROLE ( 'creation_date' ) ;
#266 = CARTESIAN_POINT ( 'NONE',  ( 6.349999999999996980, 6.349999999999996980, -6.349999999999999645 ) ) ;
#267 = FACE_OUTER_BOUND ( 'NONE', #264, .T. ) ;
#268 = EDGE_LOOP ( 'NONE', ( #25, #238, #129 ) ) ;
#269 = CC_DESIGN_PERSON_AND_ORGANIZATION_ASSIGNMENT ( #103, #177, ( #122 ) ) ;
#270 = CARTESIAN_POINT ( 'NONE',  ( 6.349999999999996980, 6.349999999999996980, 6.349999999999999645 ) ) ;
#271 = VECTOR ( 'NONE', #127, 1000.000000000000000 ) ;
#272 = EDGE_CURVE ( 'NONE', #176, #305, #201, .T. ) ;
#273 = LOCAL_TIME ( 10, 0, 31.00000000000000000, #62 ) ;
#274 = CARTESIAN_POINT ( 'NONE',  ( 6.349999999999998757, 6.349999999999998757, 6.349999999999999645 ) ) ;
#275 = LINE ( 'NONE', #278, #192 ) ;
#276 = AXIS2_PLACEMENT_3D ( 'NONE', #52, #179, #284 ) ;
#277 = DIRECTION ( 'NONE',  ( -0.000000000000000000, 0.000000000000000000, 1.000000000000000000 ) ) ;
#278 = CARTESIAN_POINT ( 'NONE',  ( 6.349999999999996980, 6.349999999999996980, 6.349999999999999645 ) ) ;
#279 = PERSON_AND_ORGANIZATION ( #296, #246 ) ;
#280 = PLANE ( 'NONE',  #276 ) ;
#281 = VECTOR ( 'NONE', #47, 1000.000000000000000 ) ;
#282 = EDGE_LOOP ( 'NONE', ( #36, #285, #190 ) ) ;
#283 = DATE_TIME_ROLE ( 'classification_date' ) ;
#284 = DIRECTION ( 'NONE',  ( -1.000000000000000000, 2.903408047666378392E-16, 0.000000000000000000 ) ) ;
#285 = ORIENTED_EDGE ( 'NONE', *, *, #93, .F. ) ;
#286 = APPROVAL_DATE_TIME ( #152, #50 ) ;
#287 = CARTESIAN_POINT ( 'NONE',  ( -6.350000000000002309, 6.350000000000001421, 6.349999999999999645 ) ) ;
#288 = EDGE_CURVE ( 'NONE', #16, #82, #145, .T. ) ;
#289 = APPROVAL_STATUS ( 'not_yet_approved' ) ;
#290 = ORIENTED_EDGE ( 'NONE', *, *, #116, .F. ) ;
#291 = APPROVAL_ROLE ( '' ) ;
#292 = CARTESIAN_POINT ( 'NONE',  ( 6.349999999999998757, 6.349999999999998757, 6.349999999999999645 ) ) ;
#293 = DIRECTION ( 'NONE',  ( 0.000000000000000000, 0.000000000000000000, 1.000000000000000000 ) ) ;
#294 = VERTEX_POINT ( 'NONE', #252 ) ;
#295 = FACE_OUTER_BOUND ( 'NONE', #105, .T. ) ;
#296 = PERSON ( 'UNSPECIFIED', 'UNSPECIFIED', 'UNSPECIFIED', ('UNSPECIFIED'), ('UNSPECIFIED'), ('UNSPECIFIED') ) ;
#297 = VECTOR ( 'NONE', #124, 1000.000000000000000 ) ;
#298 = CC_DESIGN_DATE_AND_TIME_ASSIGNMENT ( #123, #283, ( #169 ) ) ;
#299 = LINE ( 'NONE', #304, #140 ) ;
#300 = LINE ( 'NONE', #46, #5 ) ;
#301 = CARTESIAN_POINT ( 'NONE',  ( -6.349999999999999645, -6.350000000000000533, 6.349999999999999645 ) ) ;
#302 = VERTEX_POINT ( 'NONE', #23 ) ;
#303 = PERSON_AND_ORGANIZATION ( #296, #246 ) ;
#304 = CARTESIAN_POINT ( 'NONE',  ( 6.349999999999998757, 6.349999999999998757, -6.349999999999999645 ) ) ;
#305 = VERTEX_POINT ( 'NONE', #171 ) ;
#306 = DIRECTION ( 'NONE',  ( -2.220446049250312588E-16, 1.000000000000000000, 0.000000000000000000 ) ) ;
#307 = ORIENTED_EDGE ( 'NONE', *, *, #65, .F. ) ;
#308 = EDGE_CURVE ( 'NONE', #39, #108, #255, .T. ) ;
#309 = DIRECTION ( 'NONE',  ( 0.000000000000000000, 0.000000000000000000, -1.000000000000000000 ) ) ;
#310 = CARTESIAN_POINT ( 'NONE',  ( 0.000000000000000000, 0.000000000000000000, -6.349999999999999645 ) ) ;
#311 = ORIENTED_EDGE ( 'NONE', *, *, #212, .T. ) ;
#312 = PERSON_AND_ORGANIZATION_ROLE ( 'design_supplier' ) ;
#313 = DIRECTION ( 'NONE',  ( 0.000000000000000000, 0.000000000000000000, 1.000000000000000000 ) ) ;
#314 = ADVANCED_FACE ( 'NONE', ( #42 ), #91, .F. ) ;
#315 = CARTESIAN_POINT ( 'NONE',  ( -6.349999999999998757, -6.349999999999997868, 6.349999999999999645 ) ) ;
#316 = ORIENTED_EDGE ( 'NONE', *, *, #288, .F. ) ;
#317 = CARTESIAN_POINT ( 'NONE',  ( 6.349999999999998757, 6.349999999999998757, 6.349999999999999645 ) ) ;
#318 = ADVANCED_FACE ( 'NONE', ( #267 ), #260, .F. ) ;
#319 = DIRECTION ( 'NONE',  ( -2.220446049250312588E-16, 1.000000000000000000, 0.000000000000000000 ) ) ;
#320 = CC_DESIGN_PERSON_AND_ORGANIZATION_ASSIGNMENT ( #29, #312, ( #12 ) ) ;
#321 = APPROVAL_PERSON_ORGANIZATION ( #148, #50, #291 ) ;
ENDSEC;
END-ISO-10303-21;
